ISO-10303-21;
HEADER;
/****************************************************************
 * Generated by software with PDE/Lib inside                    *
 * PDE/Lib Version 3.2.2, created Thu Mar 23, 2000 at 18:38:49  *
 * International Technegroup Inc. (www.iti-oh.com)              *
 ****************************************************************/
FILE_DESCRIPTION((''),'2;1');
FILE_NAME('6701002.stp','2008-01-10T04:29:44',(''),(''),'Mechanical Desktop.R8.0.24.0','Mechanical Desktop.R8.0.24.0',', , ');
FILE_SCHEMA(('CONFIG_CONTROL_DESIGN'));
ENDSEC;
DATA;
#8=(NAMED_UNIT(*)PLANE_ANGLE_UNIT()SI_UNIT($,.RADIAN.));
#9=DIMENSIONAL_EXPONENTS(0.0,0.0,0.0,0.0,0.0,0.0,0.0);
#10=PLANE_ANGLE_MEASURE_WITH_UNIT(PLANE_ANGLE_MEASURE(0.017453292500000),#8);
#14=(CONVERSION_BASED_UNIT('DEGREE',#10)NAMED_UNIT(#9)PLANE_ANGLE_UNIT());
#18=(NAMED_UNIT(*)SI_UNIT($,.STERADIAN.)SOLID_ANGLE_UNIT());
#22=(LENGTH_UNIT()NAMED_UNIT(*)SI_UNIT(.MILLI.,.METRE.));
#23=UNCERTAINTY_MEASURE_WITH_UNIT(LENGTH_MEASURE(0.000001000000000),#22,'DISTANCE_ACCURACY_VALUE','');
#28=(GEOMETRIC_REPRESENTATION_CONTEXT(3)GLOBAL_UNCERTAINTY_ASSIGNED_CONTEXT((#23))GLOBAL_UNIT_ASSIGNED_CONTEXT((#14,#18,#22))REPRESENTATION_CONTEXT('None','None'));
#29=APPLICATION_CONTEXT('CONFIGURATION CONTROLLED 3D DESIGNS OF MECHANICAL PARTS AND ASSEMBLIES');
#30=APPLICATION_PROTOCOL_DEFINITION('INTERNATIONAL STANDARD','config_control_design',1995,#29);
#31=MECHANICAL_CONTEXT('3D Mechanical Parts',#29,'mechanical');
#32=PRODUCT('6701002A','6701002',' ',(#31));
#33=PRODUCT_RELATED_PRODUCT_CATEGORY('detail',$,(#32,#130));
#34=PRODUCT_CATEGORY('part',$);
#35=PRODUCT_CATEGORY_RELATIONSHIP('None','None',#34,#33);
#36=PERSON('1','Design','Joe',$,$,$);
#37=ORGANIZATION($,'None','None');
#38=PERSON_AND_ORGANIZATION(#36,#37);
#39=PERSON_AND_ORGANIZATION_ROLE('design_owner');
#40=CC_DESIGN_PERSON_AND_ORGANIZATION_ASSIGNMENT(#38,#39,(#32,#130));
#41=PRODUCT_DEFINITION_FORMATION_WITH_SPECIFIED_SOURCE('None','None',#32,.NOT_KNOWN.);
#42=PERSON('2','Creator','Joe',$,$,$);
#43=ORGANIZATION($,'None','None');
#44=PERSON_AND_ORGANIZATION(#42,#43);
#45=PERSON_AND_ORGANIZATION_ROLE('creator');
#46=CC_DESIGN_PERSON_AND_ORGANIZATION_ASSIGNMENT(#44,#45,(#41,#131));
#47=PERSON('3','Supplier','Joe',$,$,$);
#48=ORGANIZATION($,'None','None');
#49=PERSON_AND_ORGANIZATION(#47,#48);
#50=PERSON_AND_ORGANIZATION_ROLE('design_supplier');
#51=CC_DESIGN_PERSON_AND_ORGANIZATION_ASSIGNMENT(#49,#50,(#41,#131));
#52=APPROVAL_STATUS('approved');
#53=APPROVAL(#52,'None');
#54=PERSON('4','Approver','Joe',$,$,$);
#55=ORGANIZATION($,'None','None');
#56=PERSON_AND_ORGANIZATION(#54,#55);
#57=APPROVAL_ROLE('approver');
#58=APPROVAL_PERSON_ORGANIZATION(#56,#53,#57);
#59=COORDINATED_UNIVERSAL_TIME_OFFSET(8,$,.BEHIND.);
#60=CALENDAR_DATE(1996,29,5);
#61=LOCAL_TIME(12,0,0.0,#59);
#62=DATE_AND_TIME(#60,#61);
#63=APPROVAL_DATE_TIME(#62,#53);
#64=CC_DESIGN_APPROVAL(#53,(#41,#131));
#65=SECURITY_CLASSIFICATION_LEVEL('unclassified');
#66=SECURITY_CLASSIFICATION('security','None',#65);
#67=CC_DESIGN_SECURITY_CLASSIFICATION(#66,(#41,#131,#657));
#68=APPROVAL_STATUS('approved');
#69=APPROVAL(#68,'None');
#70=PERSON('5','Approver','Joe',$,$,$);
#71=ORGANIZATION($,'None','None');
#72=PERSON_AND_ORGANIZATION(#70,#71);
#73=APPROVAL_ROLE('approver');
#74=APPROVAL_PERSON_ORGANIZATION(#72,#69,#73);
#75=COORDINATED_UNIVERSAL_TIME_OFFSET(8,$,.BEHIND.);
#76=CALENDAR_DATE(1996,29,5);
#77=LOCAL_TIME(12,0,0.0,#75);
#78=DATE_AND_TIME(#76,#77);
#79=APPROVAL_DATE_TIME(#78,#69);
#80=CC_DESIGN_APPROVAL(#69,(#66));
#81=PERSON('6','Classifier','Joe',$,$,$);
#82=ORGANIZATION($,'None','None');
#83=PERSON_AND_ORGANIZATION(#81,#82);
#84=PERSON_AND_ORGANIZATION_ROLE('classification_officer');
#85=CC_DESIGN_PERSON_AND_ORGANIZATION_ASSIGNMENT(#83,#84,(#66));
#86=COORDINATED_UNIVERSAL_TIME_OFFSET(8,$,.BEHIND.);
#87=CALENDAR_DATE(1996,29,5);
#88=LOCAL_TIME(12,0,0.0,#86);
#89=DATE_AND_TIME(#87,#88);
#90=DATE_TIME_ROLE('classification_date');
#91=CC_DESIGN_DATE_AND_TIME_ASSIGNMENT(#89,#90,(#66));
#92=DESIGN_CONTEXT('Design Context',#29,'design');
#93=PRODUCT_DEFINITION('None','None',#41,#92);
#94=PERSON('7','Creator','Joe',$,$,$);
#95=ORGANIZATION($,'None','None');
#96=PERSON_AND_ORGANIZATION(#94,#95);
#97=PERSON_AND_ORGANIZATION_ROLE('creator');
#98=CC_DESIGN_PERSON_AND_ORGANIZATION_ASSIGNMENT(#96,#97,(#93,#132));
#99=COORDINATED_UNIVERSAL_TIME_OFFSET(8,$,.BEHIND.);
#100=CALENDAR_DATE(1996,29,5);
#101=LOCAL_TIME(12,0,0.0,#99);
#102=DATE_AND_TIME(#100,#101);
#103=DATE_TIME_ROLE('creation_date');
#104=CC_DESIGN_DATE_AND_TIME_ASSIGNMENT(#102,#103,(#93,#132));
#105=APPROVAL_STATUS('approved');
#106=APPROVAL(#105,'None');
#107=PERSON('8','Approver','Joe',$,$,$);
#108=ORGANIZATION($,'None','None');
#109=PERSON_AND_ORGANIZATION(#107,#108);
#110=APPROVAL_ROLE('approver');
#111=APPROVAL_PERSON_ORGANIZATION(#109,#106,#110);
#112=COORDINATED_UNIVERSAL_TIME_OFFSET(8,$,.BEHIND.);
#113=CALENDAR_DATE(1996,29,5);
#114=LOCAL_TIME(12,0,0.0,#112);
#115=DATE_AND_TIME(#113,#114);
#116=APPROVAL_DATE_TIME(#115,#106);
#117=CC_DESIGN_APPROVAL(#106,(#93,#132));
#118=CARTESIAN_POINT('NONE',(0.0,0.0,0.0));
#119=DIRECTION('NONE',(0.0,0.0,1.0));
#120=DIRECTION('NONE',(1.0,0.0,0.0));
#121=AXIS2_PLACEMENT_3D('NONE',#118,#119,#120);
#122=SHAPE_REPRESENTATION('SR1',(#121,#651),#28);
#123=PRODUCT_DEFINITION_SHAPE('PDS1','Test Part',#93);
#124=SHAPE_DEFINITION_REPRESENTATION(#123,#122);
#129=(GEOMETRIC_REPRESENTATION_CONTEXT(3)GLOBAL_UNCERTAINTY_ASSIGNED_CONTEXT((#23))GLOBAL_UNIT_ASSIGNED_CONTEXT((#14,#18,#22))REPRESENTATION_CONTEXT('Component','Component'));
#130=PRODUCT('6701002','6701002',' ',(#31));
#131=PRODUCT_DEFINITION_FORMATION_WITH_SPECIFIED_SOURCE('None','None',#130,.NOT_KNOWN.);
#132=PRODUCT_DEFINITION('None','None',#131,#92);
#133=SHAPE_REPRESENTATION('SR2',(#121),#129);
#134=PRODUCT_DEFINITION_SHAPE('PDS2','Test Part',#132);
#135=SHAPE_DEFINITION_REPRESENTATION(#134,#133);
#136=CARTESIAN_POINT('',(-1.025000000000000,-2.749999999999998,-18.973279227279665));
#137=DIRECTION('',(0.0,0.0,-1.0));
#138=DIRECTION('',(1.0,0.0,0.0));
#139=AXIS2_PLACEMENT_3D('',#136,#137,#138);
#140=CYLINDRICAL_SURFACE('',#139,2.250000000000000);
#141=CARTESIAN_POINT('',(1.225000000000000,-2.749999999999998,-3.0));
#142=VERTEX_POINT('',#141);
#143=CARTESIAN_POINT('',(1.225000000000000,-2.749999999999998,-1.0));
#144=VERTEX_POINT('',#143);
#145=CARTESIAN_POINT('',(1.225000000000000,-2.749999999999998,-3.0));
#146=DIRECTION('',(0.0,0.0,1.0));
#147=VECTOR('',#146,2.0);
#148=LINE('',#145,#147);
#149=EDGE_CURVE('',#142,#144,#148,.T.);
#150=ORIENTED_EDGE('',*,*,#149,.F.);
#151=CARTESIAN_POINT('',(-3.275000000000000,-2.749999999999998,-3.0));
#152=VERTEX_POINT('',#151);
#153=CARTESIAN_POINT('',(-1.025000000000000,-2.749999999999998,-3.0));
#154=DIRECTION('',(0.0,0.0,1.0));
#155=DIRECTION('',(1.0,0.0,0.0));
#156=AXIS2_PLACEMENT_3D('',#153,#154,#155);
#157=CIRCLE('',#156,2.250000000000000);
#158=EDGE_CURVE('',#152,#142,#157,.T.);
#159=ORIENTED_EDGE('',*,*,#158,.F.);
#160=CARTESIAN_POINT('',(-3.275000000000000,-2.749999999999998,-1.0));
#161=VERTEX_POINT('',#160);
#162=CARTESIAN_POINT('',(-3.275000000000000,-2.749999999999998,-1.0));
#163=DIRECTION('',(0.0,0.0,-1.0));
#164=VECTOR('',#163,2.0);
#165=LINE('',#162,#164);
#166=EDGE_CURVE('',#161,#152,#165,.T.);
#167=ORIENTED_EDGE('',*,*,#166,.F.);
#168=CARTESIAN_POINT('',(-1.025000000000000,-2.749999999999998,-1.0));
#169=DIRECTION('',(0.0,0.0,-1.0));
#170=DIRECTION('',(1.0,0.0,0.0));
#171=AXIS2_PLACEMENT_3D('',#168,#169,#170);
#172=CIRCLE('',#171,2.250000000000000);
#173=EDGE_CURVE('',#144,#161,#172,.T.);
#174=ORIENTED_EDGE('',*,*,#173,.F.);
#175=EDGE_LOOP('',(#150,#159,#167,#174));
#176=FACE_OUTER_BOUND('',#175,.T.);
#177=ADVANCED_FACE('',(#176),#140,.F.);
#178=CARTESIAN_POINT('',(-1.025000000000000,-2.749999999999998,1.0));
#179=DIRECTION('',(0.0,0.0,-1.0));
#180=DIRECTION('',(1.0,0.0,0.0));
#181=AXIS2_PLACEMENT_3D('',#178,#179,#180);
#182=CYLINDRICAL_SURFACE('',#181,4.0);
#183=CARTESIAN_POINT('',(2.975000000000000,-2.749999999999998,-1.0));
#184=VERTEX_POINT('',#183);
#185=CARTESIAN_POINT('',(2.975000000000000,-2.749999999999998,3.0));
#186=VERTEX_POINT('',#185);
#187=CARTESIAN_POINT('',(2.975000000000000,-2.749999999999998,-1.0));
#188=DIRECTION('',(0.0,0.0,1.0));
#189=VECTOR('',#188,4.0);
#190=LINE('',#187,#189);
#191=EDGE_CURVE('',#184,#186,#190,.T.);
#192=ORIENTED_EDGE('',*,*,#191,.F.);
#193=CARTESIAN_POINT('',(-5.025000000000000,-2.749999999999999,-1.0));
#194=VERTEX_POINT('',#193);
#195=CARTESIAN_POINT('',(-1.025000000000000,-2.749999999999998,-1.0));
#196=DIRECTION('',(0.0,0.0,-1.0));
#197=DIRECTION('',(1.0,0.0,0.0));
#198=AXIS2_PLACEMENT_3D('',#195,#196,#197);
#199=CIRCLE('',#198,4.0);
#200=EDGE_CURVE('',#184,#194,#199,.T.);
#201=ORIENTED_EDGE('',*,*,#200,.T.);
#202=CARTESIAN_POINT('',(-5.025000000000000,-2.749999999999999,3.0));
#203=VERTEX_POINT('',#202);
#204=CARTESIAN_POINT('',(-5.025000000000000,-2.749999999999999,3.0));
#205=DIRECTION('',(0.0,0.0,-1.0));
#206=VECTOR('',#205,4.0);
#207=LINE('',#204,#206);
#208=EDGE_CURVE('',#203,#194,#207,.T.);
#209=ORIENTED_EDGE('',*,*,#208,.F.);
#210=CARTESIAN_POINT('',(-1.025000000000000,-2.749999999999998,3.0));
#211=DIRECTION('',(0.0,0.0,-1.0));
#212=DIRECTION('',(1.0,0.0,0.0));
#213=AXIS2_PLACEMENT_3D('',#210,#211,#212);
#214=CIRCLE('',#213,4.0);
#215=EDGE_CURVE('',#186,#203,#214,.T.);
#216=ORIENTED_EDGE('',*,*,#215,.F.);
#217=EDGE_LOOP('',(#192,#201,#209,#216));
#218=FACE_OUTER_BOUND('',#217,.T.);
#219=ADVANCED_FACE('',(#218),#182,.F.);
#220=CARTESIAN_POINT('',(-1.025000000000000,5.350000000000001,-18.973279227279665));
#221=DIRECTION('',(0.0,0.0,-1.0));
#222=DIRECTION('',(1.0,0.0,0.0));
#223=AXIS2_PLACEMENT_3D('',#220,#221,#222);
#224=CYLINDRICAL_SURFACE('',#223,3.750000000000000);
#225=CARTESIAN_POINT('',(2.725000000000000,5.350000000000002,-3.0));
#226=VERTEX_POINT('',#225);
#227=CARTESIAN_POINT('',(2.725000000000000,5.350000000000001,3.0));
#228=VERTEX_POINT('',#227);
#229=CARTESIAN_POINT('',(2.725000000000000,5.350000000000002,-3.0));
#230=DIRECTION('',(0.0,0.0,1.0));
#231=VECTOR('',#230,6.0);
#232=LINE('',#229,#231);
#233=EDGE_CURVE('',#226,#228,#232,.T.);
#234=ORIENTED_EDGE('',*,*,#233,.F.);
#235=CARTESIAN_POINT('',(-4.775000000000000,5.350000000000001,-3.0));
#236=VERTEX_POINT('',#235);
#237=CARTESIAN_POINT('',(-1.025000000000000,5.350000000000001,-3.0));
#238=DIRECTION('',(0.0,0.0,1.0));
#239=DIRECTION('',(1.0,0.0,0.0));
#240=AXIS2_PLACEMENT_3D('',#237,#238,#239);
#241=CIRCLE('',#240,3.750000000000000);
#242=EDGE_CURVE('',#236,#226,#241,.T.);
#243=ORIENTED_EDGE('',*,*,#242,.F.);
#244=CARTESIAN_POINT('',(-4.775000000000000,5.350000000000001,3.0));
#245=VERTEX_POINT('',#244);
#246=CARTESIAN_POINT('',(-4.775000000000000,5.350000000000001,3.0));
#247=DIRECTION('',(0.0,0.0,-1.0));
#248=VECTOR('',#247,6.0);
#249=LINE('',#246,#248);
#250=EDGE_CURVE('',#245,#236,#249,.T.);
#251=ORIENTED_EDGE('',*,*,#250,.F.);
#252=CARTESIAN_POINT('',(-1.025000000000000,5.350000000000001,3.0));
#253=DIRECTION('',(0.0,0.0,-1.0));
#254=DIRECTION('',(1.0,0.0,0.0));
#255=AXIS2_PLACEMENT_3D('',#252,#253,#254);
#256=CIRCLE('',#255,3.750000000000000);
#257=EDGE_CURVE('',#228,#245,#256,.T.);
#258=ORIENTED_EDGE('',*,*,#257,.F.);
#259=EDGE_LOOP('',(#234,#243,#251,#258));
#260=FACE_OUTER_BOUND('',#259,.T.);
#261=ADVANCED_FACE('',(#260),#224,.F.);
#262=CARTESIAN_POINT('',(-1.025000000000000,5.350000000000001,-18.973279227279665));
#263=DIRECTION('',(0.0,0.0,-1.0));
#264=DIRECTION('',(1.0,0.0,0.0));
#265=AXIS2_PLACEMENT_3D('',#262,#263,#264);
#266=CYLINDRICAL_SURFACE('',#265,3.750000000000000);
#267=ORIENTED_EDGE('',*,*,#233,.T.);
#268=CARTESIAN_POINT('',(-1.025000000000000,5.350000000000001,3.0));
#269=DIRECTION('',(0.0,0.0,-1.0));
#270=DIRECTION('',(1.0,0.0,0.0));
#271=AXIS2_PLACEMENT_3D('',#268,#269,#270);
#272=CIRCLE('',#271,3.750000000000000);
#273=EDGE_CURVE('',#245,#228,#272,.T.);
#274=ORIENTED_EDGE('',*,*,#273,.F.);
#275=ORIENTED_EDGE('',*,*,#250,.T.);
#276=CARTESIAN_POINT('',(-1.025000000000000,5.350000000000001,-3.0));
#277=DIRECTION('',(0.0,0.0,1.0));
#278=DIRECTION('',(1.0,0.0,0.0));
#279=AXIS2_PLACEMENT_3D('',#276,#277,#278);
#280=CIRCLE('',#279,3.750000000000000);
#281=EDGE_CURVE('',#226,#236,#280,.T.);
#282=ORIENTED_EDGE('',*,*,#281,.F.);
#283=EDGE_LOOP('',(#267,#274,#275,#282));
#284=FACE_OUTER_BOUND('',#283,.T.);
#285=ADVANCED_FACE('',(#284),#266,.F.);
#286=CARTESIAN_POINT('',(2.450000000000003,-7.149999999999999,-3.0));
#287=DIRECTION('',(0.707106781186548,-0.707106781186548,0.0));
#288=DIRECTION('',(0.0,0.0,-1.0));
#289=AXIS2_PLACEMENT_3D('',#286,#287,#288);
#290=PLANE('',#289);
#291=CARTESIAN_POINT('',(3.950000000000003,-5.649999999999999,3.0));
#292=VERTEX_POINT('',#291);
#293=CARTESIAN_POINT('',(0.950000000000003,-8.649999999999999,3.0));
#294=VERTEX_POINT('',#293);
#295=CARTESIAN_POINT('',(3.950000000000003,-5.649999999999999,3.0));
#296=DIRECTION('',(-0.707106781186548,-0.707106781186548,0.0));
#297=VECTOR('',#296,4.242640687119285);
#298=LINE('',#295,#297);
#299=EDGE_CURVE('',#292,#294,#298,.T.);
#300=ORIENTED_EDGE('',*,*,#299,.T.);
#301=CARTESIAN_POINT('',(0.950000000000003,-8.649999999999999,-3.0));
#302=VERTEX_POINT('',#301);
#303=CARTESIAN_POINT('',(0.950000000000003,-8.649999999999999,3.0));
#304=DIRECTION('',(0.0,0.0,-1.0));
#305=VECTOR('',#304,6.0);
#306=LINE('',#303,#305);
#307=EDGE_CURVE('',#294,#302,#306,.T.);
#308=ORIENTED_EDGE('',*,*,#307,.T.);
#309=CARTESIAN_POINT('',(3.950000000000003,-5.649999999999999,-3.0));
#310=VERTEX_POINT('',#309);
#311=CARTESIAN_POINT('',(0.950000000000003,-8.649999999999999,-3.0));
#312=DIRECTION('',(0.707106781186548,0.707106781186548,0.0));
#313=VECTOR('',#312,4.242640687119285);
#314=LINE('',#311,#313);
#315=EDGE_CURVE('',#302,#310,#314,.T.);
#316=ORIENTED_EDGE('',*,*,#315,.T.);
#317=CARTESIAN_POINT('',(3.950000000000003,-5.649999999999999,-3.0));
#318=DIRECTION('',(0.0,0.0,1.0));
#319=VECTOR('',#318,6.0);
#320=LINE('',#317,#319);
#321=EDGE_CURVE('',#310,#292,#320,.T.);
#322=ORIENTED_EDGE('',*,*,#321,.T.);
#323=EDGE_LOOP('',(#300,#308,#316,#322));
#324=FACE_OUTER_BOUND('',#323,.T.);
#325=ADVANCED_FACE('',(#324),#290,.T.);
#326=CARTESIAN_POINT('',(-1.024999999999998,0.675000000000001,-3.0));
#327=DIRECTION('',(0.0,0.0,1.0));
#328=DIRECTION('',(1.0,0.0,0.0));
#329=AXIS2_PLACEMENT_3D('',#326,#327,#328);
#330=PLANE('',#329);
#331=ORIENTED_EDGE('',*,*,#315,.F.);
#332=CARTESIAN_POINT('',(-2.999999999999996,-8.649999999999999,-3.0));
#333=VERTEX_POINT('',#332);
#334=CARTESIAN_POINT('',(0.950000000000003,-8.649999999999999,-3.0));
#335=DIRECTION('',(-1.0,0.0,0.0));
#336=VECTOR('',#335,3.949999999999999);
#337=LINE('',#334,#336);
#338=EDGE_CURVE('',#302,#333,#337,.T.);
#339=ORIENTED_EDGE('',*,*,#338,.T.);
#340=CARTESIAN_POINT('',(-6.0,-5.649999999999999,-3.0));
#341=VERTEX_POINT('',#340);
#342=CARTESIAN_POINT('',(-6.0,-5.649999999999999,-3.0));
#343=DIRECTION('',(0.707106781186548,-0.707106781186547,0.0));
#344=VECTOR('',#343,4.242640687119287);
#345=LINE('',#342,#344);
#346=EDGE_CURVE('',#341,#333,#345,.T.);
#347=ORIENTED_EDGE('',*,*,#346,.F.);
#348=CARTESIAN_POINT('',(-6.0,7.0,-3.0));
#349=VERTEX_POINT('',#348);
#350=CARTESIAN_POINT('',(-6.0,-5.649999999999999,-3.0));
#351=DIRECTION('',(0.0,1.0,0.0));
#352=VECTOR('',#351,12.649999999999999);
#353=LINE('',#350,#352);
#354=EDGE_CURVE('',#341,#349,#353,.T.);
#355=ORIENTED_EDGE('',*,*,#354,.T.);
#356=CARTESIAN_POINT('',(-3.0,9.999999999999998,-3.0));
#357=VERTEX_POINT('',#356);
#358=CARTESIAN_POINT('',(-3.0,9.999999999999998,-3.0));
#359=DIRECTION('',(-0.707106781186548,-0.707106781186547,0.0));
#360=VECTOR('',#359,4.242640687119284);
#361=LINE('',#358,#360);
#362=EDGE_CURVE('',#357,#349,#361,.T.);
#363=ORIENTED_EDGE('',*,*,#362,.F.);
#364=CARTESIAN_POINT('',(0.950000000000003,10.0,-3.0));
#365=VERTEX_POINT('',#364);
#366=CARTESIAN_POINT('',(-3.0,9.999999999999998,-3.0));
#367=DIRECTION('',(1.0,0.0,0.0));
#368=VECTOR('',#367,3.950000000000003);
#369=LINE('',#366,#368);
#370=EDGE_CURVE('',#357,#365,#369,.T.);
#371=ORIENTED_EDGE('',*,*,#370,.T.);
#372=CARTESIAN_POINT('',(3.950000000000003,7.0,-3.0));
#373=VERTEX_POINT('',#372);
#374=CARTESIAN_POINT('',(3.950000000000003,7.0,-3.0));
#375=DIRECTION('',(-0.707106781186548,0.707106781186548,0.0));
#376=VECTOR('',#375,4.242640687119285);
#377=LINE('',#374,#376);
#378=EDGE_CURVE('',#373,#365,#377,.T.);
#379=ORIENTED_EDGE('',*,*,#378,.F.);
#380=CARTESIAN_POINT('',(3.950000000000003,7.0,-3.0));
#381=DIRECTION('',(0.0,-1.0,0.0));
#382=VECTOR('',#381,12.649999999999999);
#383=LINE('',#380,#382);
#384=EDGE_CURVE('',#373,#310,#383,.T.);
#385=ORIENTED_EDGE('',*,*,#384,.T.);
#386=EDGE_LOOP('',(#331,#339,#347,#355,#363,#371,#379,#385));
#387=FACE_OUTER_BOUND('',#386,.T.);
#388=ORIENTED_EDGE('',*,*,#242,.T.);
#389=ORIENTED_EDGE('',*,*,#281,.T.);
#390=EDGE_LOOP('',(#388,#389));
#391=FACE_BOUND('',#390,.T.);
#392=ORIENTED_EDGE('',*,*,#158,.T.);
#393=CARTESIAN_POINT('',(-1.025000000000000,-2.749999999999998,-3.0));
#394=DIRECTION('',(0.0,0.0,1.0));
#395=DIRECTION('',(1.0,0.0,0.0));
#396=AXIS2_PLACEMENT_3D('',#393,#394,#395);
#397=CIRCLE('',#396,2.250000000000000);
#398=EDGE_CURVE('',#142,#152,#397,.T.);
#399=ORIENTED_EDGE('',*,*,#398,.T.);
#400=EDGE_LOOP('',(#392,#399));
#401=FACE_BOUND('',#400,.T.);
#402=ADVANCED_FACE('',(#387,#391,#401),#330,.F.);
#403=CARTESIAN_POINT('',(3.950000000000003,-8.649999999999999,-3.0));
#404=DIRECTION('',(0.0,-1.0,0.0));
#405=DIRECTION('',(0.0,0.0,-1.0));
#406=AXIS2_PLACEMENT_3D('',#403,#404,#405);
#407=PLANE('',#406);
#408=ORIENTED_EDGE('',*,*,#307,.F.);
#409=CARTESIAN_POINT('',(-2.999999999999996,-8.649999999999999,3.0));
#410=VERTEX_POINT('',#409);
#411=CARTESIAN_POINT('',(0.950000000000003,-8.649999999999999,3.0));
#412=DIRECTION('',(-1.0,0.0,0.0));
#413=VECTOR('',#412,3.949999999999999);
#414=LINE('',#411,#413);
#415=EDGE_CURVE('',#294,#410,#414,.T.);
#416=ORIENTED_EDGE('',*,*,#415,.T.);
#417=CARTESIAN_POINT('',(-2.999999999999996,-8.649999999999999,-3.0));
#418=DIRECTION('',(0.0,0.0,1.0));
#419=VECTOR('',#418,6.0);
#420=LINE('',#417,#419);
#421=EDGE_CURVE('',#333,#410,#420,.T.);
#422=ORIENTED_EDGE('',*,*,#421,.F.);
#423=ORIENTED_EDGE('',*,*,#338,.F.);
#424=EDGE_LOOP('',(#408,#416,#422,#423));
#425=FACE_OUTER_BOUND('',#424,.T.);
#426=ADVANCED_FACE('',(#425),#407,.T.);
#427=CARTESIAN_POINT('',(-4.499999999999996,-7.149999999999999,-3.0));
#428=DIRECTION('',(-0.707106781186548,-0.707106781186548,0.0));
#429=DIRECTION('',(0.0,0.0,1.0));
#430=AXIS2_PLACEMENT_3D('',#427,#428,#429);
#431=PLANE('',#430);
#432=CARTESIAN_POINT('',(-6.0,-5.649999999999999,3.0));
#433=VERTEX_POINT('',#432);
#434=CARTESIAN_POINT('',(-2.999999999999996,-8.649999999999999,3.0));
#435=DIRECTION('',(-0.707106781186548,0.707106781186547,0.0));
#436=VECTOR('',#435,4.242640687119287);
#437=LINE('',#434,#436);
#438=EDGE_CURVE('',#410,#433,#437,.T.);
#439=ORIENTED_EDGE('',*,*,#438,.T.);
#440=CARTESIAN_POINT('',(-6.0,-5.649999999999999,3.0));
#441=DIRECTION('',(0.0,0.0,-1.0));
#442=VECTOR('',#441,6.0);
#443=LINE('',#440,#442);
#444=EDGE_CURVE('',#433,#341,#443,.T.);
#445=ORIENTED_EDGE('',*,*,#444,.T.);
#446=ORIENTED_EDGE('',*,*,#346,.T.);
#447=ORIENTED_EDGE('',*,*,#421,.T.);
#448=EDGE_LOOP('',(#439,#445,#446,#447));
#449=FACE_OUTER_BOUND('',#448,.T.);
#450=ADVANCED_FACE('',(#449),#431,.T.);
#451=CARTESIAN_POINT('',(2.450000000000003,8.500000000000000,-3.0));
#452=DIRECTION('',(0.707106781186547,0.707106781186548,0.0));
#453=DIRECTION('',(0.0,0.0,-1.0));
#454=AXIS2_PLACEMENT_3D('',#451,#452,#453);
#455=PLANE('',#454);
#456=CARTESIAN_POINT('',(0.950000000000003,10.0,3.0));
#457=VERTEX_POINT('',#456);
#458=CARTESIAN_POINT('',(3.950000000000003,7.0,3.0));
#459=VERTEX_POINT('',#458);
#460=CARTESIAN_POINT('',(0.950000000000003,10.0,3.0));
#461=DIRECTION('',(0.707106781186548,-0.707106781186548,0.0));
#462=VECTOR('',#461,4.242640687119285);
#463=LINE('',#460,#462);
#464=EDGE_CURVE('',#457,#459,#463,.T.);
#465=ORIENTED_EDGE('',*,*,#464,.T.);
#466=CARTESIAN_POINT('',(3.950000000000003,7.0,3.0));
#467=DIRECTION('',(0.0,0.0,-1.0));
#468=VECTOR('',#467,6.0);
#469=LINE('',#466,#468);
#470=EDGE_CURVE('',#459,#373,#469,.T.);
#471=ORIENTED_EDGE('',*,*,#470,.T.);
#472=ORIENTED_EDGE('',*,*,#378,.T.);
#473=CARTESIAN_POINT('',(0.950000000000003,10.0,-3.0));
#474=DIRECTION('',(0.0,0.0,1.0));
#475=VECTOR('',#474,6.0);
#476=LINE('',#473,#475);
#477=EDGE_CURVE('',#365,#457,#476,.T.);
#478=ORIENTED_EDGE('',*,*,#477,.T.);
#479=EDGE_LOOP('',(#465,#471,#472,#478));
#480=FACE_OUTER_BOUND('',#479,.T.);
#481=ADVANCED_FACE('',(#480),#455,.T.);
#482=CARTESIAN_POINT('',(-6.0,10.0,-3.0));
#483=DIRECTION('',(0.0,1.0,0.0));
#484=DIRECTION('',(0.0,0.0,1.0));
#485=AXIS2_PLACEMENT_3D('',#482,#483,#484);
#486=PLANE('',#485);
#487=ORIENTED_EDGE('',*,*,#477,.F.);
#488=ORIENTED_EDGE('',*,*,#370,.F.);
#489=CARTESIAN_POINT('',(-3.0,9.999999999999998,3.0));
#490=VERTEX_POINT('',#489);
#491=CARTESIAN_POINT('',(-3.0,9.999999999999998,3.0));
#492=DIRECTION('',(0.0,0.0,-1.0));
#493=VECTOR('',#492,6.0);
#494=LINE('',#491,#493);
#495=EDGE_CURVE('',#490,#357,#494,.T.);
#496=ORIENTED_EDGE('',*,*,#495,.F.);
#497=CARTESIAN_POINT('',(-3.0,9.999999999999998,3.0));
#498=DIRECTION('',(1.0,0.0,0.0));
#499=VECTOR('',#498,3.950000000000003);
#500=LINE('',#497,#499);
#501=EDGE_CURVE('',#490,#457,#500,.T.);
#502=ORIENTED_EDGE('',*,*,#501,.T.);
#503=EDGE_LOOP('',(#487,#488,#496,#502));
#504=FACE_OUTER_BOUND('',#503,.T.);
#505=ADVANCED_FACE('',(#504),#486,.T.);
#506=CARTESIAN_POINT('',(-4.499999999999998,8.500000000000000,-3.0));
#507=DIRECTION('',(-0.707106781186548,0.707106781186547,0.0));
#508=DIRECTION('',(0.0,0.0,1.0));
#509=AXIS2_PLACEMENT_3D('',#506,#507,#508);
#510=PLANE('',#509);
#511=CARTESIAN_POINT('',(-6.0,7.0,3.0));
#512=VERTEX_POINT('',#511);
#513=CARTESIAN_POINT('',(-6.0,7.0,3.0));
#514=DIRECTION('',(0.707106781186548,0.707106781186547,0.0));
#515=VECTOR('',#514,4.242640687119284);
#516=LINE('',#513,#515);
#517=EDGE_CURVE('',#512,#490,#516,.T.);
#518=ORIENTED_EDGE('',*,*,#517,.T.);
#519=ORIENTED_EDGE('',*,*,#495,.T.);
#520=ORIENTED_EDGE('',*,*,#362,.T.);
#521=CARTESIAN_POINT('',(-6.0,7.0,-3.0));
#522=DIRECTION('',(0.0,0.0,1.0));
#523=VECTOR('',#522,6.0);
#524=LINE('',#521,#523);
#525=EDGE_CURVE('',#349,#512,#524,.T.);
#526=ORIENTED_EDGE('',*,*,#525,.T.);
#527=EDGE_LOOP('',(#518,#519,#520,#526));
#528=FACE_OUTER_BOUND('',#527,.T.);
#529=ADVANCED_FACE('',(#528),#510,.T.);
#530=CARTESIAN_POINT('',(-1.025000000000000,-2.749999999999998,-1.0));
#531=DIRECTION('',(0.0,0.0,-1.0));
#532=DIRECTION('',(1.0,0.0,0.0));
#533=AXIS2_PLACEMENT_3D('',#530,#531,#532);
#534=PLANE('',#533);
#535=ORIENTED_EDGE('',*,*,#200,.F.);
#536=CARTESIAN_POINT('',(-1.025000000000000,-2.749999999999998,-1.0));
#537=DIRECTION('',(0.0,0.0,-1.0));
#538=DIRECTION('',(1.0,0.0,0.0));
#539=AXIS2_PLACEMENT_3D('',#536,#537,#538);
#540=CIRCLE('',#539,4.0);
#541=EDGE_CURVE('',#194,#184,#540,.T.);
#542=ORIENTED_EDGE('',*,*,#541,.F.);
#543=EDGE_LOOP('',(#535,#542));
#544=FACE_OUTER_BOUND('',#543,.T.);
#545=CARTESIAN_POINT('',(-1.025000000000000,-2.749999999999998,-1.0));
#546=DIRECTION('',(0.0,0.0,-1.0));
#547=DIRECTION('',(1.0,0.0,0.0));
#548=AXIS2_PLACEMENT_3D('',#545,#546,#547);
#549=CIRCLE('',#548,2.250000000000000);
#550=EDGE_CURVE('',#161,#144,#549,.T.);
#551=ORIENTED_EDGE('',*,*,#550,.T.);
#552=ORIENTED_EDGE('',*,*,#173,.T.);
#553=EDGE_LOOP('',(#551,#552));
#554=FACE_BOUND('',#553,.T.);
#555=ADVANCED_FACE('',(#544,#554),#534,.F.);
#556=CARTESIAN_POINT('',(-1.025000000000000,-2.749999999999998,1.0));
#557=DIRECTION('',(0.0,0.0,-1.0));
#558=DIRECTION('',(1.0,0.0,0.0));
#559=AXIS2_PLACEMENT_3D('',#556,#557,#558);
#560=CYLINDRICAL_SURFACE('',#559,4.0);
#561=ORIENTED_EDGE('',*,*,#191,.T.);
#562=CARTESIAN_POINT('',(-1.025000000000000,-2.749999999999998,3.0));
#563=DIRECTION('',(0.0,0.0,-1.0));
#564=DIRECTION('',(1.0,0.0,0.0));
#565=AXIS2_PLACEMENT_3D('',#562,#563,#564);
#566=CIRCLE('',#565,4.0);
#567=EDGE_CURVE('',#203,#186,#566,.T.);
#568=ORIENTED_EDGE('',*,*,#567,.F.);
#569=ORIENTED_EDGE('',*,*,#208,.T.);
#570=ORIENTED_EDGE('',*,*,#541,.T.);
#571=EDGE_LOOP('',(#561,#568,#569,#570));
#572=FACE_OUTER_BOUND('',#571,.T.);
#573=ADVANCED_FACE('',(#572),#560,.F.);
#574=CARTESIAN_POINT('',(-1.025000000000000,-2.749999999999998,-18.973279227279665));
#575=DIRECTION('',(0.0,0.0,-1.0));
#576=DIRECTION('',(1.0,0.0,0.0));
#577=AXIS2_PLACEMENT_3D('',#574,#575,#576);
#578=CYLINDRICAL_SURFACE('',#577,2.250000000000000);
#579=ORIENTED_EDGE('',*,*,#149,.T.);
#580=ORIENTED_EDGE('',*,*,#550,.F.);
#581=ORIENTED_EDGE('',*,*,#166,.T.);
#582=ORIENTED_EDGE('',*,*,#398,.F.);
#583=EDGE_LOOP('',(#579,#580,#581,#582));
#584=FACE_OUTER_BOUND('',#583,.T.);
#585=ADVANCED_FACE('',(#584),#578,.F.);
#586=CARTESIAN_POINT('',(3.950000000000003,10.0,-3.0));
#587=DIRECTION('',(1.0,0.0,0.0));
#588=DIRECTION('',(0.0,0.0,-1.0));
#589=AXIS2_PLACEMENT_3D('',#586,#587,#588);
#590=PLANE('',#589);
#591=ORIENTED_EDGE('',*,*,#321,.F.);
#592=ORIENTED_EDGE('',*,*,#384,.F.);
#593=ORIENTED_EDGE('',*,*,#470,.F.);
#594=CARTESIAN_POINT('',(3.950000000000003,7.0,3.0));
#595=DIRECTION('',(0.0,-1.0,0.0));
#596=VECTOR('',#595,12.649999999999999);
#597=LINE('',#594,#596);
#598=EDGE_CURVE('',#459,#292,#597,.T.);
#599=ORIENTED_EDGE('',*,*,#598,.T.);
#600=EDGE_LOOP('',(#591,#592,#593,#599));
#601=FACE_OUTER_BOUND('',#600,.T.);
#602=ADVANCED_FACE('',(#601),#590,.T.);
#603=CARTESIAN_POINT('',(-5.999999999999996,-8.649999999999999,-3.0));
#604=DIRECTION('',(-1.0,0.0,0.0));
#605=DIRECTION('',(0.0,0.0,1.0));
#606=AXIS2_PLACEMENT_3D('',#603,#604,#605);
#607=PLANE('',#606);
#608=ORIENTED_EDGE('',*,*,#444,.F.);
#609=CARTESIAN_POINT('',(-6.0,-5.649999999999999,3.0));
#610=DIRECTION('',(0.0,1.0,0.0));
#611=VECTOR('',#610,12.649999999999999);
#612=LINE('',#609,#611);
#613=EDGE_CURVE('',#433,#512,#612,.T.);
#614=ORIENTED_EDGE('',*,*,#613,.T.);
#615=ORIENTED_EDGE('',*,*,#525,.F.);
#616=ORIENTED_EDGE('',*,*,#354,.F.);
#617=EDGE_LOOP('',(#608,#614,#615,#616));
#618=FACE_OUTER_BOUND('',#617,.T.);
#619=ADVANCED_FACE('',(#618),#607,.T.);
#620=CARTESIAN_POINT('',(0.0,8.881784E-016,3.0));
#621=DIRECTION('',(0.0,0.0,1.0));
#622=DIRECTION('',(1.0,0.0,0.0));
#623=AXIS2_PLACEMENT_3D('',#620,#621,#622);
#624=PLANE('',#623);
#625=ORIENTED_EDGE('',*,*,#299,.F.);
#626=ORIENTED_EDGE('',*,*,#598,.F.);
#627=ORIENTED_EDGE('',*,*,#464,.F.);
#628=ORIENTED_EDGE('',*,*,#501,.F.);
#629=ORIENTED_EDGE('',*,*,#517,.F.);
#630=ORIENTED_EDGE('',*,*,#613,.F.);
#631=ORIENTED_EDGE('',*,*,#438,.F.);
#632=ORIENTED_EDGE('',*,*,#415,.F.);
#633=EDGE_LOOP('',(#625,#626,#627,#628,#629,#630,#631,#632));
#634=FACE_OUTER_BOUND('',#633,.T.);
#635=ORIENTED_EDGE('',*,*,#257,.T.);
#636=ORIENTED_EDGE('',*,*,#273,.T.);
#637=EDGE_LOOP('',(#635,#636));
#638=FACE_BOUND('',#637,.T.);
#639=ORIENTED_EDGE('',*,*,#215,.T.);
#640=ORIENTED_EDGE('',*,*,#567,.T.);
#641=EDGE_LOOP('',(#639,#640));
#642=FACE_BOUND('',#641,.T.);
#643=ADVANCED_FACE('',(#634,#638,#642),#624,.T.);
#644=CLOSED_SHELL('',(#177,#219,#261,#285,#325,#402,#426,#450,#481,#505,#529,#555,#573,#585,#602,#619,#643));
#645=MANIFOLD_SOLID_BREP('40',#644);
#646=ADVANCED_BREP_SHAPE_REPRESENTATION('ABSR1',(#645),#129);
#647=SHAPE_REPRESENTATION_RELATIONSHIP('SRRPL1',' ',#646,#133);
#648=CARTESIAN_POINT('NONE',(0.0,0.0,0.0));
#649=DIRECTION('NONE',(0.0,0.0,1.0));
#650=DIRECTION('NONE',(1.0,0.0,0.0));
#651=AXIS2_PLACEMENT_3D('NONE',#648,#649,#650);
#652=ITEM_DEFINED_TRANSFORMATION('IDT1',' ',#121,#651);
#656=(REPRESENTATION_RELATIONSHIP(' ',' ',#133,#122)REPRESENTATION_RELATIONSHIP_WITH_TRANSFORMATION(#652)SHAPE_REPRESENTATION_RELATIONSHIP());
#657=NEXT_ASSEMBLY_USAGE_OCCURRENCE('NAUO1','6701002','6701002',#93,#132,$);
#658=PRODUCT_DEFINITION_SHAPE('PDS_NAUO1',' ',#657);
#659=CONTEXT_DEPENDENT_SHAPE_REPRESENTATION(#656,#658);
ENDSEC;
END-ISO-10303-21;
